  0
SECTION
  2
HEADER
  9
$ACADVER
  1
AC1015
  9
$ACADMAINTVER
 70
     6
  9
$DWGCODEPAGE
  3
ANSI_1254
  9
$INSBASE
 10
0.0
 20
0.0
 30
0.0
  9
$EXTMIN
 10
0.0
 20
0.0
 30
0.0
  9
$EXTMAX
 10
279.4
 20
215.9
 30
0.0
  9
$LIMMIN
 10
0.0
 20
0.0
  9
$LIMMAX
 10
279.4
 20
215.9
  9
$ORTHOMODE
 70
     0
  9
$REGENMODE
 70
     1
  9
$FILLMODE
 70
     1
  9
$QTEXTMODE
 70
     0
  9
$MIRRTEXT
 70
     1
  9
$LTSCALE
 40
1.0
  9
$ATTMODE
 70
     1
  9
$TEXTSIZE
 40
3.5
  9
$TRACEWID
 40
1.0
  9
$TEXTSTYLE
  7
Standard
  9
$CLAYER
  8
0
  9
$CELTYPE
  6
ByLayer
  9
$CECOLOR
 62
   256
  9
$CELTSCALE
 40
1.0
  9
$DISPSILH
 70
     0
  9
$DIMSCALE
 40
1.0
  9
$DIMASZ
 40
3.5
  9
$DIMEXO
 40
1.0
  9
$DIMDLI
 40
3.75
  9
$DIMRND
 40
0.0
  9
$DIMDLE
 40
0.0
  9
$DIMEXE
 40
1.0
  9
$DIMTP
 40
0.0
  9
$DIMTM
 40
0.0
  9
$DIMTXT
 40
3.5
  9
$DIMCEN
 40
2.5
  9
$DIMTSZ
 40
0.0
  9
$DIMTOL
 70
     0
  9
$DIMLIM
 70
     0
  9
$DIMTIH
 70
     1
  9
$DIMTOH
 70
     1
  9
$DIMSE1
 70
     0
  9
$DIMSE2
 70
     0
  9
$DIMTAD
 70
     1
  9
$DIMZIN
 70
     0
  9
$DIMBLK
  1

  9
$DIMASO
 70
     1
  9
$DIMSHO
 70
     1
  9
$DIMPOST
  1

  9
$DIMAPOST
  1

  9
$DIMALT
 70
     0
  9
$DIMALTD
 70
     3
  9
$DIMALTF
 40
0.0393700787
  9
$DIMLFAC
 40
1.0
  9
$DIMTOFL
 70
     1
  9
$DIMTVP
 40
0.0
  9
$DIMTIX
 70
     0
  9
$DIMSOXD
 70
     0
  9
$DIMSAH
 70
     0
  9
$DIMBLK1
  1

  9
$DIMBLK2
  1

  9
$DIMSTYLE
  2
ISO-25
  9
$DIMCLRD
 70
     0
  9
$DIMCLRE
 70
     0
  9
$DIMCLRT
 70
     0
  9
$DIMTFAC
 40
1.0
  9
$DIMGAP
 40
1.524
  9
$DIMJUST
 70
     0
  9
$DIMSD1
 70
     0
  9
$DIMSD2
 70
     0
  9
$DIMTOLJ
 70
     0
  9
$DIMTZIN
 70
     0
  9
$DIMALTZ
 70
     0
  9
$DIMALTTZ
 70
     0
  9
$DIMUPT
 70
     0
  9
$DIMDEC
 70
     2
  9
$DIMTDEC
 70
     2
  9
$DIMALTU
 70
     2
  9
$DIMALTTD
 70
     3
  9
$DIMTXSTY
  7
Standard
  9
$DIMAUNIT
 70
     0
  9
$DIMADEC
 70
     2
  9
$DIMALTRND
 40
0.0
  9
$DIMAZIN
 70
     0
  9
$DIMDSEP
 70
    44
  9
$DIMATFIT
 70
     3
  9
$DIMFRAC
 70
     0
  9
$DIMLDRBLK
  1

  9
$DIMLUNIT
 70
     2
  9
$DIMLWD
 70
    -2
  9
$DIMLWE
 70
    -2
  9
$DIMTMOVE
 70
     0
  9
$LUNITS
 70
     2
  9
$LUPREC
 70
     2
  9
$SKETCHINC
 40
1.0
  9
$FILLETRAD
 40
10.0
  9
$AUNITS
 70
     0
  9
$AUPREC
 70
     2
  9
$MENU
  1
.
  9
$ELEVATION
 40
0.0
  9
$PELEVATION
 40
0.0
  9
$THICKNESS
 40
0.0
  9
$LIMCHECK
 70
     0
  9
$CHAMFERA
 40
0.0
  9
$CHAMFERB
 40
0.0
  9
$CHAMFERC
 40
0.0
  9
$CHAMFERD
 40
0.0
  9
$SKPOLY
 70
     0
  9
$TDCREATE
 40
2459947.528011794
  9
$TDUCREATE
 40
2459947.403011794
  9
$TDUPDATE
 40
2459947.528011979
  9
$TDUUPDATE
 40
2459947.403011979
  9
$TDINDWG
 40
0.0000000116
  9
$TDUSRTIMER
 40
0.0000000116
  9
$USRTIMER
 70
     1
  9
$ANGBASE
 50
0.0
  9
$ANGDIR
 70
     0
  9
$PDMODE
 70
     0
  9
$PDSIZE
 40
-1.0
  9
$PLINEWID
 40
0.0
  9
$SPLFRAME
 70
     0
  9
$SPLINETYPE
 70
     6
  9
$SPLINESEGS
 70
     8
  9
$HANDSEED
  5
F0
  9
$SURFTAB1
 70
     6
  9
$SURFTAB2
 70
     6
  9
$SURFTYPE
 70
     6
  9
$SURFU
 70
     6
  9
$SURFV
 70
     6
  9
$UCSBASE
  2

  9
$UCSNAME
  2

  9
$UCSORG
 10
0.0
 20
0.0
 30
0.0
  9
$UCSXDIR
 10
1.0
 20
0.0
 30
0.0
  9
$UCSYDIR
 10
0.0
 20
1.0
 30
0.0
  9
$UCSORTHOREF
  2

  9
$UCSORTHOVIEW
 70
     0
  9
$UCSORGTOP
 10
0.0
 20
0.0
 30
0.0
  9
$UCSORGBOTTOM
 10
0.0
 20
0.0
 30
0.0
  9
$UCSORGLEFT
 10
0.0
 20
0.0
 30
0.0
  9
$UCSORGRIGHT
 10
0.0
 20
0.0
 30
0.0
  9
$UCSORGFRONT
 10
0.0
 20
0.0
 30
0.0
  9
$UCSORGBACK
 10
0.0
 20
0.0
 30
0.0
  9
$PUCSBASE
  2

  9
$PUCSNAME
  2

  9
$PUCSORG
 10
0.0
 20
0.0
 30
0.0
  9
$PUCSXDIR
 10
1.0
 20
0.0
 30
0.0
  9
$PUCSYDIR
 10
0.0
 20
1.0
 30
0.0
  9
$PUCSORTHOREF
  2

  9
$PUCSORTHOVIEW
 70
     0
  9
$PUCSORGTOP
 10
0.0
 20
0.0
 30
0.0
  9
$PUCSORGBOTTOM
 10
0.0
 20
0.0
 30
0.0
  9
$PUCSORGLEFT
 10
0.0
 20
0.0
 30
0.0
  9
$PUCSORGRIGHT
 10
0.0
 20
0.0
 30
0.0
  9
$PUCSORGFRONT
 10
0.0
 20
0.0
 30
0.0
  9
$PUCSORGBACK
 10
0.0
 20
0.0
 30
0.0
  9
$USERI1
 70
     0
  9
$USERI2
 70
     0
  9
$USERI3
 70
     0
  9
$USERI4
 70
     0
  9
$USERI5
 70
     0
  9
$USERR1
 40
0.0
  9
$USERR2
 40
0.0
  9
$USERR3
 40
0.0
  9
$USERR4
 40
0.0
  9
$USERR5
 40
0.0
  9
$WORLDVIEW
 70
     1
  9
$SHADEDGE
 70
     3
  9
$SHADEDIF
 70
    70
  9
$TILEMODE
 70
     1
  9
$MAXACTVP
 70
    64
  9
$PINSBASE
 10
0.0
 20
0.0
 30
0.0
  9
$PLIMCHECK
 70
     0
  9
$PEXTMIN
 10
1.0000000000E+20
 20
1.0000000000E+20
 30
1.0000000000E+20
  9
$PEXTMAX
 10
-1.0000000000E+20
 20
-1.0000000000E+20
 30
-1.0000000000E+20
  9
$PLIMMIN
 10
0.0
 20
0.0
  9
$PLIMMAX
 10
420.0
 20
297.0
  9
$UNITMODE
 70
     0
  9
$VISRETAIN
 70
     1
  9
$PLINEGEN
 70
     0
  9
$PSLTSCALE
 70
     1
  9
$TREEDEPTH
 70
  3020
  9
$CMLSTYLE
  2
Standard
  9
$CMLJUST
 70
     0
  9
$CMLSCALE
 40
20.0
  9
$PROXYGRAPHICS
 70
     1
  9
$MEASUREMENT
 70
     1
  9
$CELWEIGHT
370
    -1
  9
$ENDCAPS
280
     0
  9
$JOINSTYLE
280
     0
  9
$LWDISPLAY
290
     1
  9
$INSUNITS
 70
     4
  9
$HYPERLINKBASE
  1

  9
$STYLESHEET
  1

  9
$XEDIT
290
     1
  9
$CEPSNTYPE
380
     0
  9
$PSTYLEMODE
290
     1
  9
$FINGERPRINTGUID
  2
{37991f5c-8bc8-4fe0-b29e-b3487a63984e}
  9
$VERSIONGUID
  2
{FAEB1C32-E019-11D5-929B-00C0DF256EC4}
  9
$EXTNAMES
290
     1
  9
$PSVPSCALE
 40
0.0
  9
$OLESTARTUP
290
     0
  0
ENDSEC
  0
SECTION
  2
CLASSES
  0
CLASS
  1
ACDBDICTIONARYWDFLT
  2
AcDbDictionaryWithDefault
  3
ObjectDBX Classes
 90
        0
280
     0
281
     0
  0
CLASS
  1
VISUALSTYLE
  2
AcDbVisualStyle
  3
ObjectDBX Classes
 90
     4095
280
     0
281
     0
  0
CLASS
  1
MATERIAL
  2
AcDbMaterial
  3
ObjectDBX Classes
 90
     1153
280
     0
281
     0
  0
CLASS
  1
SCALE
  2
AcDbScale
  3
ObjectDBX Classes
 90
     1153
280
     0
281
     0
  0
CLASS
  1
TABLESTYLE
  2
AcDbTableStyle
  3
ObjectDBX Classes
 90
     4095
280
     0
281
     0
  0
CLASS
  1
MLEADERSTYLE
  2
AcDbMLeaderStyle
  3
ACDB_MLEADERSTYLE_CLASS
 90
     4095
280
     0
281
     0
  0
CLASS
  1
SUN
  2
AcDbSun
  3
SCENEOE
 90
     1153
280
     0
281
     0
  0
CLASS
  1
ACDBPLACEHOLDER
  2
AcDbPlaceHolder
  3
ObjectDBX Classes
 90
        0
280
     0
281
     0
  0
CLASS
  1
LAYOUT
  2
AcDbLayout
  3
ObjectDBX Classes
 90
        0
280
     0
281
     0
  0
ENDSEC
  0
SECTION
  2
TABLES
  0
TABLE
  2
VPORT
  5
8
330
0
100
AcDbSymbolTable
 70
     1
  0
VPORT
  5
29
330
8
100
AcDbSymbolTableRecord
100
AcDbViewportTableRecord
  2
*Active
 70
     0
 10
0.0
 20
0.0
 11
1.0
 21
1.0
 12
139.7
 22
107.95
 13
0.0
 23
0.0
 14
10.0
 24
10.0
 15
10.0
 25
10.0
 16
0.0
 26
0.0
 36
1.0
 17
0.0
 27
0.0
 37
0.0
 40
215.9
 41
1.2941176471
 42
50.0
 43
0.0
 44
0.0
 50
0.0
 51
0.0
 71
     0
 72
  2000
 73
     1
 74
     3
 75
     0
 76
     0
 77
     0
 78
     0
281
     0
 65
     1
110
0.0
120
0.0
130
0.0
111
1.0
121
0.0
131
0.0
112
0.0
122
1.0
132
0.0
 79
     0
146
0.0
  0
ENDTAB
  0
TABLE
  2
LTYPE
  5
5
330
0
100
AcDbSymbolTable
 70
     6
  0
LTYPE
  5
14
330
5
100
AcDbSymbolTableRecord
100
AcDbLinetypeTableRecord
  2
ByBlock
 70
     0
  3

 72
    65
 73
     0
 40
0.0
  0
LTYPE
  5
15
330
5
100
AcDbSymbolTableRecord
100
AcDbLinetypeTableRecord
  2
ByLayer
 70
     0
  3

 72
    65
 73
     0
 40
0.0
  0
LTYPE
  5
16
330
5
100
AcDbSymbolTableRecord
100
AcDbLinetypeTableRecord
  2
Continuous
 70
     0
  3
Solid line
 72
    65
 73
     0
 40
0.0
  0
LTYPE
  5
6E
330
5
100
AcDbSymbolTableRecord
100
AcDbLinetypeTableRecord
  2
HIDDEN
 70
     0
  3
Hidden __ __ __ __ __ __ __ __ __ __ __ __ __ __
 72
    65
 73
     2
 40
1.905
 49
1.27
 74
     0
 49
-0.635
 74
     0
  0
LTYPE
  5
6F
330
5
100
AcDbSymbolTableRecord
100
AcDbLinetypeTableRecord
  2
PHANTOM
 70
     0
  3
Phantom ______  __  __  ______  __  __  ______
 72
    65
 73
     6
 40
12.7
 49
6.35
 74
     0
 49
-1.27
 74
     0
 49
1.27
 74
     0
 49
-1.27
 74
     0
 49
1.27
 74
     0
 49
-1.27
 74
     0
  0
LTYPE
  5
70
330
5
100
AcDbSymbolTableRecord
100
AcDbLinetypeTableRecord
  2
CENTER
 70
     0
  3
Center ____ _ ____ _ ____ _ ____ _ ____ _ ____
 72
    65
 73
     4
 40
10.16
 49
6.35
 74
     0
 49
-1.27
 74
     0
 49
1.27
 74
     0
 49
-1.27
 74
     0
  0
LTYPE
  5
71
330
5
100
AcDbSymbolTableRecord
100
AcDbLinetypeTableRecord
  2
CENTERX2
 70
     0
  3
Center (2x) ________  __  ________  __  _____
 72
    65
 73
     4
 40
20.32
 49
12.7
 74
     0
 49
-2.54
 74
     0
 49
2.54
 74
     0
 49
-2.54
 74
     0
  0
LTYPE
  5
72
330
5
100
AcDbSymbolTableRecord
100
AcDbLinetypeTableRecord
  2
DOT2
 70
     0
  3
Dot (.5x) ........................................
 72
    65
 73
     2
 40
0.635
 49
0.0
 74
     0
 49
-0.635
 74
     0
  0
ENDTAB
  0
TABLE
  2
LAYER
  5
2
330
0
100
AcDbSymbolTable
 70
    17
  0
LAYER
  5
10
330
2
100
AcDbSymbolTableRecord
100
AcDbLayerTableRecord
  2
0
 70
     0
 62
     7
  6
Continuous
370
    -3
390
F
  0
LAYER
  5
73
330
2
100
AcDbSymbolTableRecord
100
AcDbLayerTableRecord
  2
FORMAT
 70
     0
 62
     7
  6
Continuous
370
    -3
390
F
  0
LAYER
  5
74
330
2
100
AcDbSymbolTableRecord
100
AcDbLayerTableRecord
  2
YARDIMCI_GEOMETRI
 70
     0
 62
    -6
  6
Continuous
290
     0
370
    -3
390
F
  0
LAYER
  5
75
330
2
100
AcDbSymbolTableRecord
100
AcDbLayerTableRecord
  2
SAYFA_CERCEVESI
 70
     0
 62
     7
  6
Continuous
370
    25
390
F
  0
LAYER
  5
76
330
2
100
AcDbSymbolTableRecord
100
AcDbLayerTableRecord
  2
ANTET
 70
     0
 62
     7
  6
Continuous
370
    -3
390
F
  0
LAYER
  5
77
330
2
100
AcDbSymbolTableRecord
100
AcDbLayerTableRecord
  2
OLCU
 70
     0
 62
   150
  6
Continuous
370
    -3
390
F
  0
LAYER
  5
78
330
2
100
AcDbSymbolTableRecord
100
AcDbLayerTableRecord
  2
METIN
 70
     0
 62
    96
  6
Continuous
370
    -3
390
F
  0
LAYER
  5
79
330
2
100
AcDbSymbolTableRecord
100
AcDbLayerTableRecord
  2
BALON
 70
     0
 62
     5
  6
Continuous
370
    -3
390
F
  0
LAYER
  5
7A
330
2
100
AcDbSymbolTableRecord
100
AcDbLayerTableRecord
  2
VURGU
 70
     0
 62
     7
  6
Continuous
370
    -3
390
F
  0
LAYER
  5
7B
330
2
100
AcDbSymbolTableRecord
100
AcDbLayerTableRecord
  2
SILIK
 70
     0
 62
     7
  6
Continuous
370
    -3
390
F
  0
LAYER
  5
7C
330
2
100
AcDbSymbolTableRecord
100
AcDbLayerTableRecord
  2
MODEL
 70
     0
 62
     7
  6
Continuous
370
    -3
390
F
  0
LAYER
  5
7D
330
2
100
AcDbSymbolTableRecord
100
AcDbLayerTableRecord
  2
DETAYLANDıRMA
 70
     0
 62
   190
  6
Continuous
370
    -3
390
F
  0
LAYER
  5
7E
330
2
100
AcDbSymbolTableRecord
100
AcDbLayerTableRecord
  2
TOLERANS
 70
     0
 62
   230
  6
Continuous
370
    -3
390
F
  0
LAYER
  5
7F
330
2
100
AcDbSymbolTableRecord
100
AcDbLayerTableRecord
  2
MERKEZ_CIZGILERI
 70
     0
 62
    30
  6
Continuous
370
    -3
390
F
  0
LAYER
  5
80
330
2
100
AcDbSymbolTableRecord
100
AcDbLayerTableRecord
  2
KESIT-DETAY_CIZGILERI
 70
     0
 62
     7
  6
Continuous
370
    -3
390
F
  0
LAYER
  5
81
330
2
100
AcDbSymbolTableRecord
100
AcDbLayerTableRecord
  2
\U+041E\U+0421\U+0415\U+0412\U+042B\U+0415
 70
     0
 62
     7
  6
Continuous
370
    -3
390
F
  0
LAYER
  5
82
330
2
100
AcDbSymbolTableRecord
100
AcDbLayerTableRecord
  2
\U+0412\U+041E\U+0414\U+042F\U+041D\U+042B\U+0415_\U+0417\U+041D\U+0410\U+041A\U+0418
 70
     0
 62
    11
  6
Continuous
370
    -3
390
F
  0
ENDTAB
  0
TABLE
  2
STYLE
  5
3
330
0
100
AcDbSymbolTable
 70
     1
  0
STYLE
  5
11
330
3
100
AcDbSymbolTableRecord
100
AcDbTextStyleTableRecord
  2
Standard
 70
     0
 40
0.0
 41
1.0
 50
0.0
 71
     0
 42
3.5
  3
txt
  4

  0
ENDTAB
  0
TABLE
  2
VIEW
  5
6
330
0
100
AcDbSymbolTable
 70
     0
  0
ENDTAB
  0
TABLE
  2
UCS
  5
7
330
0
100
AcDbSymbolTable
 70
     0
  0
ENDTAB
  0
TABLE
  2
APPID
  5
9
330
0
100
AcDbSymbolTable
 70
     1
  0
APPID
  5
12
330
9
100
AcDbSymbolTableRecord
100
AcDbRegAppTableRecord
  2
ACAD
 70
     0
  0
ENDTAB
  0
TABLE
  2
DIMSTYLE
  5
A
330
0
100
AcDbSymbolTable
 70
     1
100
AcDbDimStyleTable
  0
DIMSTYLE
105
27
330
A
100
AcDbSymbolTableRecord
100
AcDbDimStyleTableRecord
  2
ISO-25
 70
     0
 41
2.5
 42
0.625
 43
3.75
 44
1.25
 73
     0
 74
     0
 77
     1
 78
     8
140
2.5
141
2.5
143
0.0393700787
147
0.625
171
     3
172
     1
178
     0
271
     2
272
     2
274
     3
278
    44
283
     0
284
     8
340
11
  0
ENDTAB
  0
TABLE
  2
BLOCK_RECORD
  5
1
330
0
100
AcDbSymbolTable
 70
     2
  0
BLOCK_RECORD
  5
1F
330
1
100
AcDbSymbolTableRecord
100
AcDbBlockTableRecord
  2
*Model_Space
340
22
  0
BLOCK_RECORD
  5
1B
330
1
100
AcDbSymbolTableRecord
100
AcDbBlockTableRecord
  2
*Paper_Space
340
1E
  0
BLOCK_RECORD
  5
23
330
1
100
AcDbSymbolTableRecord
100
AcDbBlockTableRecord
  2
*Paper_Space0
340
26
  0
BLOCK_RECORD
  5
88
330
1
100
AcDbSymbolTableRecord
100
AcDbBlockTableRecord
  2
SW_CENTERMARKSYMBOL_0
340
0
102
{BLKREFS
331
93
102
}
  0
ENDTAB
  0
ENDSEC
  0
SECTION
  2
BLOCKS
  0
BLOCK
  5
20
330
1F
100
AcDbEntity
  8
0
100
AcDbBlockBegin
  2
*Model_Space
 70
     0
 10
0.0
 20
0.0
 30
0.0
  3
*Model_Space
  1

  0
ENDBLK
  5
21
330
1F
100
AcDbEntity
  8
0
100
AcDbBlockEnd
  0
BLOCK
  5
1C
330
1B
100
AcDbEntity
 67
     1
  8
0
100
AcDbBlockBegin
  2
*Paper_Space
 70
     0
 10
0.0
 20
0.0
 30
0.0
  3
*Paper_Space
  1

  0
ENDBLK
  5
1D
330
1B
100
AcDbEntity
 67
     1
  8
0
100
AcDbBlockEnd
  0
BLOCK
  5
24
330
23
100
AcDbEntity
  8
0
100
AcDbBlockBegin
  2
*Paper_Space0
 70
     0
 10
0.0
 20
0.0
 30
0.0
  3
*Paper_Space0
  1

  0
ENDBLK
  5
25
330
23
100
AcDbEntity
  8
0
100
AcDbBlockEnd
  0
BLOCK
  5
89
330
88
100
AcDbEntity
  8
0
100
AcDbBlockBegin
  2
SW_CENTERMARKSYMBOL_0
 70
     0
 10
0.0
 20
0.0
 30
0.0
  3
SW_CENTERMARKSYMBOL_0
  1

  0
LINE
  5
8B
330
88
100
AcDbEntity
  8
FORMAT
 62
     0
100
AcDbLine
 10
0.0
 20
0.0
 30
0.0
 11
0.0
 21
2.5
 31
0.0
  0
LINE
  5
8C
330
88
100
AcDbEntity
  8
FORMAT
 62
     0
100
AcDbLine
 10
0.0
 20
0.0
 30
0.0
 11
-2.5
 21
0.0
 31
0.0
  0
LINE
  5
8D
330
88
100
AcDbEntity
  8
FORMAT
 62
     0
100
AcDbLine
 10
0.0
 20
0.0
 30
0.0
 11
0.0
 21
-2.5
 31
0.0
  0
LINE
  5
8E
330
88
100
AcDbEntity
  8
FORMAT
 62
     0
100
AcDbLine
 10
0.0
 20
0.0
 30
0.0
 11
2.5
 21
0.0
 31
0.0
  0
LINE
  5
8F
330
88
100
AcDbEntity
  8
FORMAT
 62
     0
100
AcDbLine
 10
0.0
 20
5.0
 30
0.0
 11
0.0
 21
202.5
 31
0.0
  0
LINE
  5
90
330
88
100
AcDbEntity
  8
FORMAT
 62
     0
100
AcDbLine
 10
-5.0
 20
0.0
 30
0.0
 11
-202.5
 21
0.0
 31
0.0
  0
LINE
  5
91
330
88
100
AcDbEntity
  8
FORMAT
 62
     0
100
AcDbLine
 10
0.0
 20
-5.0
 30
0.0
 11
0.0
 21
-202.5
 31
0.0
  0
LINE
  5
92
330
88
100
AcDbEntity
  8
FORMAT
 62
     0
100
AcDbLine
 10
5.0
 20
0.0
 30
0.0
 11
202.5
 21
0.0
 31
0.0
  0
ENDBLK
  5
8A
330
88
100
AcDbEntity
  8
0
100
AcDbBlockEnd
  0
ENDSEC
  0
SECTION
  2
ENTITIES
  0
CIRCLE
  5
83
330
1F
100
AcDbEntity
  8
0
  6
Continuous
 62
     7
370
    25
100
AcDbCircle
 10
139.395004093
 20
107.5851680021
 30
0.0
 40
200.0
  0
CIRCLE
  5
84
330
1F
100
AcDbEntity
  8
0
  6
Continuous
 62
     7
370
    25
100
AcDbCircle
 10
139.395004093
 20
107.5851680021
 30
0.0
 40
163.6
  0
CIRCLE
  5
85
330
1F
100
AcDbEntity
  8
0
  6
Continuous
 62
     7
370
    25
100
AcDbCircle
 10
139.395004093
 20
107.5851680021
 30
0.0
 40
161.7234752377721
  0
CIRCLE
  5
86
330
1F
100
AcDbEntity
  8
0
  6
Continuous
 62
     7
370
    25
100
AcDbCircle
 10
139.395004093
 20
107.5851680021
 30
0.0
 40
147.0765247622279
  0
CIRCLE
  5
87
330
1F
100
AcDbEntity
  8
0
  6
Continuous
 62
     7
370
    25
100
AcDbCircle
 10
139.395004093
 20
107.5851680021
 30
0.0
 40
145.2
  0
INSERT
  5
93
330
1F
100
AcDbEntity
  8
FORMAT
 62
     7
100
AcDbBlockReference
  2
SW_CENTERMARKSYMBOL_0
 10
139.395004093
 20
107.5851680021
 30
0.0
  0
LINE
  5
94
330
1F
100
AcDbEntity
  8
0
  6
Continuous
 62
     7
370
    25
100
AcDbLine
 10
-541.3726577087
 20
307.5851680021
 30
0.0
 11
-729.4114080137
 21
307.5851680021
 31
0.0
  0
LINE
  5
95
330
1F
100
AcDbEntity
  8
0
  6
Continuous
 62
     7
370
    25
100
AcDbLine
 10
-729.4114080137
 20
-92.4148319979
 30
0.0
 11
-541.3726577087
 21
-92.4148319979
 31
0.0
  0
ARC
  5
96
330
1F
100
AcDbEntity
  8
0
  6
Continuous
 62
     7
370
    25
100
AcDbCircle
 10
-541.3726577087
 20
305.5851680021
 30
0.0
 40
2.0
100
AcDbArc
 50
38.6598082541
 51
90.0
  0
ARC
  5
97
330
1F
100
AcDbEntity
  8
0
  6
Continuous
 62
     7
370
    25
100
AcDbCircle
 10
-541.3726577087
 20
-90.4148319979
 30
0.0
 40
2.0
100
AcDbArc
 50
270.0
 51
321.3401917459
  0
LINE
  5
98
330
1F
100
AcDbEntity
  8
0
  6
Continuous
 62
     7
370
    25
100
AcDbLine
 10
-539.8109200898
 20
-91.664222093
 30
0.0
 11
-523.0118959376
 21
-70.6654419028
 31
0.0
  0
LINE
  5
99
330
1F
100
AcDbEntity
  8
0
  6
Continuous
 62
     7
370
    25
100
AcDbLine
 10
-523.0118959376
 20
285.835777907
 30
0.0
 11
-539.8109200898
 21
306.8345580972
 31
0.0
  0
ARC
  5
9A
330
1F
100
AcDbEntity
  8
0
  6
Continuous
 62
     7
370
    25
100
AcDbCircle
 10
-521.4501583187
 20
287.0851680021
 30
0.0
 40
2.0
100
AcDbArc
 50
218.6598082541
 51
270.0
  0
ARC
  5
9B
330
1F
100
AcDbEntity
  8
0
  6
Continuous
 62
     7
370
    25
100
AcDbCircle
 10
-521.4501583187
 20
-71.9148319979
 30
0.0
 40
1.999999999999972
100
AcDbArc
 50
90.0
 51
141.3401917459
  0
LINE
  5
9C
330
1F
100
AcDbEntity
  8
0
  6
Continuous
 62
     7
370
    25
100
AcDbLine
 10
-349.4114080137
 20
285.0851680021
 30
0.0
 11
-521.4501583187
 21
285.0851680021
 31
0.0
  0
LINE
  5
9D
330
1F
100
AcDbEntity
  8
0
  6
Continuous
 62
     7
370
    25
100
AcDbLine
 10
-521.4501583187
 20
-69.9148319979
 30
0.0
 11
-349.4114080137
 21
-69.9148319979
 31
0.0
  0
LINE
  5
9E
330
1F
100
AcDbEntity
  8
0
  6
Continuous
 62
     7
370
    25
100
AcDbLine
 10
-729.4114080137
 20
307.5851680021
 30
0.0
 11
-729.4114080137
 21
-92.4148319979
 31
0.0
  0
LINE
  5
9F
330
1F
100
AcDbEntity
  8
0
  6
Continuous
 62
     7
370
    25
100
AcDbLine
 10
-349.4114080137
 20
285.0851680021
 30
0.0
 11
-349.4114080137
 21
-69.9148319979
 31
0.0
  0
LINE
  5
A0
330
1F
100
AcDbEntity
  8
0
  6
Continuous
 62
     1
370
    25
100
AcDbLine
 10
-541.3726577087
 20
307.5851680021
 30
0.0
 11
-541.3726577087
 21
-92.4148319979
 31
0.0
  0
LINE
  5
A1
330
1F
100
AcDbEntity
  8
0
  6
Continuous
 62
     1
370
    25
100
AcDbLine
 10
-539.8109200898
 20
306.8345580972
 30
0.0
 11
-539.8109200898
 21
-91.664222093
 31
0.0
  0
LINE
  5
A2
330
1F
100
AcDbEntity
  8
0
  6
Continuous
 62
     1
370
    25
100
AcDbLine
 10
-523.0118959376
 20
285.835777907
 30
0.0
 11
-523.0118959376
 21
-70.6654419028
 31
0.0
  0
LINE
  5
A3
330
1F
100
AcDbEntity
  8
0
  6
Continuous
 62
     1
370
    25
100
AcDbLine
 10
-521.4501583187
 20
285.0851680021
 30
0.0
 11
-521.4501583187
 21
-69.9148319979
 31
0.0
  0
LINE
  5
A4
330
1F
100
AcDbEntity
  8
0
  6
Continuous
 62
     7
370
    25
100
AcDbLine
 10
786.8103538211
 20
-92.4148319979
 30
0.0
 11
974.8491041262
 21
-92.4148319979
 31
0.0
  0
LINE
  5
A5
330
1F
100
AcDbEntity
  8
0
  6
Continuous
 62
     7
370
    25
100
AcDbLine
 10
974.8491041262
 20
307.5851680021
 30
0.0
 11
786.8103538211
 21
307.5851680021
 31
0.0
  0
ARC
  5
A6
330
1F
100
AcDbEntity
  8
0
  6
Continuous
 62
     7
370
    25
100
AcDbCircle
 10
786.8103538211
 20
-90.4148319979
 30
0.0
 40
2.0
100
AcDbArc
 50
218.6598082541
 51
270.0
  0
ARC
  5
A7
330
1F
100
AcDbEntity
  8
0
  6
Continuous
 62
     7
370
    25
100
AcDbCircle
 10
786.8103538211
 20
305.5851680021
 30
0.0
 40
2.0
100
AcDbArc
 50
90.0
 51
141.3401917459
  0
LINE
  5
A8
330
1F
100
AcDbEntity
  8
0
  6
Continuous
 62
     7
370
    25
100
AcDbLine
 10
785.2486162022
 20
306.8345580972
 30
0.0
 11
768.4495920501
 21
285.835777907
 31
0.0
  0
LINE
  5
A9
330
1F
100
AcDbEntity
  8
0
  6
Continuous
 62
     7
370
    25
100
AcDbLine
 10
768.4495920501
 20
-70.6654419028
 30
0.0
 11
785.2486162022
 21
-91.664222093
 31
0.0
  0
ARC
  5
AA
330
1F
100
AcDbEntity
  8
0
  6
Continuous
 62
     7
370
    25
100
AcDbCircle
 10
766.8878544312
 20
-71.9148319979
 30
0.0
 40
1.999999999999972
100
AcDbArc
 50
38.6598082541
 51
90.0
  0
ARC
  5
AB
330
1F
100
AcDbEntity
  8
0
  6
Continuous
 62
     7
370
    25
100
AcDbCircle
 10
766.8878544312
 20
287.0851680021
 30
0.0
 40
2.0
100
AcDbArc
 50
270.0
 51
321.3401917459
  0
LINE
  5
AC
330
1F
100
AcDbEntity
  8
0
  6
Continuous
 62
     7
370
    25
100
AcDbLine
 10
594.8491041262
 20
-69.9148319979
 30
0.0
 11
766.8878544312
 21
-69.9148319979
 31
0.0
  0
LINE
  5
AD
330
1F
100
AcDbEntity
  8
0
  6
Continuous
 62
     7
370
    25
100
AcDbLine
 10
766.8878544312
 20
285.0851680021
 30
0.0
 11
594.8491041262
 21
285.0851680021
 31
0.0
  0
LINE
  5
AE
330
1F
100
AcDbEntity
  8
0
  6
Continuous
 62
     7
370
    25
100
AcDbLine
 10
974.8491041262
 20
107.5851680021
 30
0.0
 11
974.8491041262
 21
307.5851680021
 31
0.0
  0
LINE
  5
AF
330
1F
100
AcDbEntity
  8
0
  6
Continuous
 62
     7
370
    25
100
AcDbLine
 10
974.8491041262
 20
-92.4148319979
 30
0.0
 11
974.8491041262
 21
107.5851680021
 31
0.0
  0
LINE
  5
B0
330
1F
100
AcDbEntity
  8
0
  6
Continuous
 62
     7
370
    25
100
AcDbLine
 10
594.8491041262
 20
107.5851680021
 30
0.0
 11
594.8491041262
 21
285.0851680021
 31
0.0
  0
LINE
  5
B1
330
1F
100
AcDbEntity
  8
0
  6
Continuous
 62
     7
370
    25
100
AcDbLine
 10
594.8491041262
 20
-69.9148319979
 30
0.0
 11
594.8491041262
 21
107.5851680021
 31
0.0
  0
LINE
  5
B2
330
1F
100
AcDbEntity
  8
0
  6
Continuous
 62
     1
370
    25
100
AcDbLine
 10
786.8103538211
 20
107.5851680021
 30
0.0
 11
786.8103538211
 21
307.5851680021
 31
0.0
  0
LINE
  5
B3
330
1F
100
AcDbEntity
  8
0
  6
Continuous
 62
     1
370
    25
100
AcDbLine
 10
786.8103538211
 20
-92.4148319979
 30
0.0
 11
786.8103538211
 21
107.5851680021
 31
0.0
  0
LINE
  5
B4
330
1F
100
AcDbEntity
  8
0
  6
Continuous
 62
     1
370
    25
100
AcDbLine
 10
785.2486162022
 20
107.5851680021
 30
0.0
 11
785.2486162022
 21
306.8345580972
 31
0.0
  0
LINE
  5
B5
330
1F
100
AcDbEntity
  8
0
  6
Continuous
 62
     1
370
    25
100
AcDbLine
 10
785.2486162022
 20
-91.664222093
 30
0.0
 11
785.2486162022
 21
107.5851680021
 31
0.0
  0
LINE
  5
B6
330
1F
100
AcDbEntity
  8
0
  6
Continuous
 62
     1
370
    25
100
AcDbLine
 10
768.4495920501
 20
107.5851680021
 30
0.0
 11
768.4495920501
 21
285.835777907
 31
0.0
  0
LINE
  5
B7
330
1F
100
AcDbEntity
  8
0
  6
Continuous
 62
     1
370
    25
100
AcDbLine
 10
768.4495920501
 20
-70.6654419028
 30
0.0
 11
768.4495920501
 21
107.5851680021
 31
0.0
  0
LINE
  5
B8
330
1F
100
AcDbEntity
  8
0
  6
Continuous
 62
     1
370
    25
100
AcDbLine
 10
766.8878544312
 20
107.5851680021
 30
0.0
 11
766.8878544312
 21
285.0851680021
 31
0.0
  0
LINE
  5
B9
330
1F
100
AcDbEntity
  8
0
  6
Continuous
 62
     1
370
    25
100
AcDbLine
 10
766.8878544312
 20
-69.9148319979
 30
0.0
 11
766.8878544312
 21
107.5851680021
 31
0.0
  0
LINE
  5
BA
330
1F
100
AcDbEntity
  8
0
  6
Continuous
 62
     7
370
    25
100
AcDbLine
 10
339.395004093
 20
701.7179857677
 30
0.0
 11
339.395004093
 21
889.7567360727
 31
0.0
  0
LINE
  5
BB
330
1F
100
AcDbEntity
  8
0
  6
Continuous
 62
     7
370
    25
100
AcDbLine
 10
-60.604995907
 20
889.7567360727
 30
0.0
 11
-60.604995907
 21
701.7179857677
 31
0.0
  0
ARC
  5
BC
330
1F
100
AcDbEntity
  8
0
  6
Continuous
 62
     7
370
    25
100
AcDbCircle
 10
337.395004093
 20
701.7179857677
 30
0.0
 40
2.0
100
AcDbArc
 50
308.6598082541
 51
0.0
  0
ARC
  5
BD
330
1F
100
AcDbEntity
  8
0
  6
Continuous
 62
     7
370
    25
100
AcDbCircle
 10
-58.604995907
 20
701.7179857677
 30
0.0
 40
2.0
100
AcDbArc
 50
180.0
 51
231.3401917459
  0
LINE
  5
BE
330
1F
100
AcDbEntity
  8
0
  6
Continuous
 62
     7
370
    25
100
AcDbLine
 10
-59.8543860021
 20
700.1562481488
 30
0.0
 11
-38.8556058118
 21
683.3572239966
 31
0.0
  0
LINE
  5
BF
330
1F
100
AcDbEntity
  8
0
  6
Continuous
 62
     7
370
    25
100
AcDbLine
 10
317.6456139979
 20
683.3572239966
 30
0.0
 11
338.6443941882
 21
700.1562481488
 31
0.0
  0
ARC
  5
C0
330
1F
100
AcDbEntity
  8
0
  6
Continuous
 62
     7
370
    25
100
AcDbCircle
 10
318.895004093
 20
681.7954863777
 30
0.0
 40
1.999999999999947
100
AcDbArc
 50
128.6598082541
 51
180.0
  0
ARC
  5
C1
330
1F
100
AcDbEntity
  8
0
  6
Continuous
 62
     7
370
    25
100
AcDbCircle
 10
-40.104995907
 20
681.7954863777
 30
0.0
 40
1.999999999999972
100
AcDbArc
 50
0.0
 51
51.3401917459
  0
LINE
  5
C2
330
1F
100
AcDbEntity
  8
0
  6
Continuous
 62
     7
370
    25
100
AcDbLine
 10
316.895004093
 20
509.7567360727
 30
0.0
 11
316.895004093
 21
681.7954863777
 31
0.0
  0
LINE
  5
C3
330
1F
100
AcDbEntity
  8
0
  6
Continuous
 62
     7
370
    25
100
AcDbLine
 10
-38.104995907
 20
681.7954863777
 30
0.0
 11
-38.104995907
 21
509.7567360727
 31
0.0
  0
LINE
  5
C4
330
1F
100
AcDbEntity
  8
0
  6
Continuous
 62
     7
370
    25
100
AcDbLine
 10
339.395004093
 20
889.7567360727
 30
0.0
 11
-60.604995907
 21
889.7567360727
 31
0.0
  0
LINE
  5
C5
330
1F
100
AcDbEntity
  8
0
  6
Continuous
 62
     7
370
    25
100
AcDbLine
 10
316.895004093
 20
509.7567360727
 30
0.0
 11
-38.104995907
 21
509.7567360727
 31
0.0
  0
LINE
  5
C6
330
1F
100
AcDbEntity
  8
0
  6
Continuous
 62
     1
370
    25
100
AcDbLine
 10
339.395004093
 20
701.7179857677
 30
0.0
 11
-60.604995907
 21
701.7179857677
 31
0.0
  0
LINE
  5
C7
330
1F
100
AcDbEntity
  8
0
  6
Continuous
 62
     1
370
    25
100
AcDbLine
 10
338.6443941882
 20
700.1562481488
 30
0.0
 11
-59.8543860021
 21
700.1562481488
 31
0.0
  0
LINE
  5
C8
330
1F
100
AcDbEntity
  8
0
  6
Continuous
 62
     1
370
    25
100
AcDbLine
 10
317.6456139979
 20
683.3572239966
 30
0.0
 11
-38.8556058118
 21
683.3572239966
 31
0.0
  0
LINE
  5
C9
330
1F
100
AcDbEntity
  8
0
  6
Continuous
 62
     1
370
    25
100
AcDbLine
 10
316.895004093
 20
681.7954863777
 30
0.0
 11
-38.104995907
 21
681.7954863777
 31
0.0
  0
LINE
  5
CA
330
1F
100
AcDbEntity
  8
0
  6
Continuous
 62
     7
370
    25
100
AcDbLine
 10
-60.604995907
 20
-495.957208451
 30
0.0
 11
-60.604995907
 21
-683.9959587561
 31
0.0
  0
LINE
  5
CB
330
1F
100
AcDbEntity
  8
0
  6
Continuous
 62
     7
370
    25
100
AcDbLine
 10
339.395004093
 20
-683.9959587561
 30
0.0
 11
339.395004093
 21
-495.957208451
 31
0.0
  0
ARC
  5
CC
330
1F
100
AcDbEntity
  8
0
  6
Continuous
 62
     7
370
    25
100
AcDbCircle
 10
-58.604995907
 20
-495.957208451
 30
0.0
 40
2.000000000000009
100
AcDbArc
 50
128.6598082541
 51
180.0
  0
ARC
  5
CD
330
1F
100
AcDbEntity
  8
0
  6
Continuous
 62
     7
370
    25
100
AcDbCircle
 10
337.395004093
 20
-495.957208451
 30
0.0
 40
2.0
100
AcDbArc
 50
0.0
 51
51.3401917459
  0
LINE
  5
CE
330
1F
100
AcDbEntity
  8
0
  6
Continuous
 62
     7
370
    25
100
AcDbLine
 10
338.6443941882
 20
-494.3954708322
 30
0.0
 11
317.6456139979
 21
-477.59644668
 31
0.0
  0
LINE
  5
CF
330
1F
100
AcDbEntity
  8
0
  6
Continuous
 62
     7
370
    25
100
AcDbLine
 10
-38.8556058118
 20
-477.59644668
 30
0.0
 11
-59.8543860021
 21
-494.3954708322
 31
0.0
  0
ARC
  5
D0
330
1F
100
AcDbEntity
  8
0
  6
Continuous
 62
     7
370
    25
100
AcDbCircle
 10
-40.104995907
 20
-476.0347090611
 30
0.0
 40
1.999999999999972
100
AcDbArc
 50
308.6598082541
 51
0.0
  0
ARC
  5
D1
330
1F
100
AcDbEntity
  8
0
  6
Continuous
 62
     7
370
    25
100
AcDbCircle
 10
318.895004093
 20
-476.0347090611
 30
0.0
 40
1.999999999999947
100
AcDbArc
 50
180.0
 51
231.3401917459
  0
LINE
  5
D2
330
1F
100
AcDbEntity
  8
0
  6
Continuous
 62
     7
370
    25
100
AcDbLine
 10
-38.104995907
 20
-303.9959587561
 30
0.0
 11
-38.104995907
 21
-476.0347090611
 31
0.0
  0
LINE
  5
D3
330
1F
100
AcDbEntity
  8
0
  6
Continuous
 62
     7
370
    25
100
AcDbLine
 10
316.895004093
 20
-476.0347090611
 30
0.0
 11
316.895004093
 21
-303.9959587561
 31
0.0
  0
LINE
  5
D4
330
1F
100
AcDbEntity
  8
0
  6
Continuous
 62
     7
370
    25
100
AcDbLine
 10
-60.604995907
 20
-683.9959587561
 30
0.0
 11
339.395004093
 21
-683.9959587561
 31
0.0
  0
LINE
  5
D5
330
1F
100
AcDbEntity
  8
0
  6
Continuous
 62
     7
370
    25
100
AcDbLine
 10
-38.104995907
 20
-303.9959587561
 30
0.0
 11
316.895004093
 21
-303.9959587561
 31
0.0
  0
LINE
  5
D6
330
1F
100
AcDbEntity
  8
0
  6
Continuous
 62
     1
370
    25
100
AcDbLine
 10
-60.604995907
 20
-495.957208451
 30
0.0
 11
339.395004093
 21
-495.957208451
 31
0.0
  0
LINE
  5
D7
330
1F
100
AcDbEntity
  8
0
  6
Continuous
 62
     1
370
    25
100
AcDbLine
 10
-59.8543860021
 20
-494.3954708322
 30
0.0
 11
338.6443941882
 21
-494.3954708322
 31
0.0
  0
LINE
  5
D8
330
1F
100
AcDbEntity
  8
0
  6
Continuous
 62
     1
370
    25
100
AcDbLine
 10
-38.8556058118
 20
-477.59644668
 30
0.0
 11
317.6456139979
 21
-477.59644668
 31
0.0
  0
LINE
  5
D9
330
1F
100
AcDbEntity
  8
0
  6
Continuous
 62
     1
370
    25
100
AcDbLine
 10
-38.104995907
 20
-476.0347090611
 30
0.0
 11
316.895004093
 21
-476.0347090611
 31
0.0
  0
LINE
  5
DA
330
1F
100
AcDbEntity
  8
0
  6
Continuous
 62
     7
370
    25
100
AcDbLine
 10
878.9012291018
 20
-323.7135833455
 30
0.0
 11
745.9377536353
 21
-246.9554028024
 31
0.0
  0
LINE
  5
DB
330
1F
100
AcDbEntity
  8
0
  6
Continuous
 62
     7
370
    25
100
AcDbLine
 10
545.9540071081
 20
-593.3749477547
 30
0.0
 11
678.9174825746
 21
-670.1331282977
 31
0.0
  0
SPLINE
  5
DC
330
1F
100
AcDbEntity
  8
0
  6
Continuous
 62
     7
370
    25
100
AcDbSpline
210
0.0
220
0.0
230
1.0
 70
     8
 71
     3
 72
    22
 73
    18
 74
     0
 42
0.00000001
 43
0.00000001
 40
0.0
 40
0.0
 40
0.0
 40
0.0
 40
0.0307042632758225
 40
0.1043525737595924
 40
0.1779921267678242
 40
0.2516171520041996
 40
0.3252207690188539
 40
0.3987950113350255
 40
0.4723309615356333
 40
0.545819036489435
 40
0.6192494573407343
 40
0.692612923061597
 40
0.7659014763027586
 40
0.8391095062715471
 40
0.9122347812951676
 40
0.9852793561140466
 40
1.0
 40
1.0
 40
1.0
 40
1.0
 10
919.7651844458031
 20
-396.2043229675886
 30
0.0
 10
919.6729357861961
 20
-395.3559465585205
 30
0.0
 10
919.3594162931736
 20
-392.4726250794187
 30
0.0
 10
918.5886068474523
 20
-387.722827662713
 30
0.0
 10
917.4597556525492
 20
-381.9630678265023
 30
0.0
 10
916.0960787633514
 20
-376.3939478592403
 30
0.0
 10
914.516824900288
 20
-371.0124973928374
 30
0.0
 10
912.7197955073218
 20
-365.8308359508785
 30
0.0
 10
910.709070536563
 20
-360.8567161365373
 30
0.0
 10
908.4876395546748
 20
-356.0986334356535
 30
0.0
 10
906.0592315727456
 20
-351.5646308371046
 30
0.0
 10
903.4283899450618
 20
-347.2617242986511
 30
0.0
 10
900.5983148675789
 20
-343.1991053205052
 30
0.0
 10
897.5792904000527
 20
-339.3756224648645
 30
0.0
 10
894.356970975502
 20
-335.8262972248315
 30
0.0
 10
891.899900500348
 20
-333.3465919014122
 30
0.0
 10
890.4643626530576
 20
-332.1325481359436
 30
0.0
 10
890.2235834269972
 20
-331.9289195664811
 30
0.0
  0
SPLINE
  5
DD
330
1F
100
AcDbEntity
  8
0
  6
Continuous
 62
     7
370
    25
100
AcDbSpline
210
0.0
220
0.0
230
1.0
 70
     8
 71
     3
 72
    23
 73
    19
 74
     0
 42
0.00000001
 43
0.00000001
 40
0.0
 40
0.0
 40
0.0
 40
0.0
 40
0.0383351031567708
 40
0.1059429461958279
 40
0.173610963804523
 40
0.2413482145316994
 40
0.3091591864242496
 40
0.3770441371915746
 40
0.444999788652186
 40
0.5130202148946705
 40
0.5810977718102
 40
0.6492239498342898
 40
0.7173900769054424
 40
0.7855878418386856
 40
0.8538096415544206
 40
0.922048776234814
 40
0.990299525697739
 40
0.9999999999999999
 40
0.9999999999999999
 40
0.9999999999999999
 40
0.9999999999999999
 10
692.437486217171
 20
-676.0580951098343
 30
0.0
 10
693.2827025334706
 20
-676.3336826060986
 30
0.0
 10
695.6185435603061
 20
-677.0952966069681
 30
0.0
 10
699.5916050345843
 20
-678.0279601505375
 30
0.0
 10
704.3358747848446
 20
-678.8809018611228
 30
0.0
 10
709.2049581068073
 20
-679.4327032309428
 30
0.0
 10
714.1834488915633
 20
-679.6990416473375
 30
0.0
 10
719.2656841684982
 20
-679.6746408903321
 30
0.0
 10
724.4429931668446
 20
-679.3604537559689
 30
0.0
 10
729.707163705794
 20
-678.7563993538888
 30
0.0
 10
735.0495679246208
 20
-677.8634105637437
 30
0.0
 10
740.4614729643278
 20
-676.6826453589771
 30
0.0
 10
745.9339784006963
 20
-675.2166299515691
 30
0.0
 10
751.4582446446277
 20
-673.4654351982406
 30
0.0
 10
757.0248926710448
 20
-671.4407449777689
 30
0.0
 10
762.626381057346
 20
-669.1132602418227
 30
0.0
 10
766.6404138582873
 20
-667.3251699673008
 30
0.0
 10
768.7875432580574
 20
-666.2352106375996
 30
0.0
 10
769.0547382110044
 20
-666.0995729662768
 30
0.0
  0
LINE
  5
DE
330
1F
100
AcDbEntity
  8
0
  6
Continuous
 62
     7
370
    25
100
AcDbLine
 10
821.5067308582
 20
-629.0871172119
 30
0.0
 11
829.012504724
 21
-622.0830697358
 31
0.0
  0
LINE
  5
DF
330
1F
100
AcDbEntity
  8
0
  6
Continuous
 62
     7
370
    25
100
AcDbLine
 10
912.3506207884
 20
-477.7215766369
 30
0.0
 11
914.6624782991
 21
-467.7191450713
 31
0.0
  0
LINE
  5
E0
330
1F
100
AcDbEntity
  8
0
  6
Continuous
 62
     7
370
    25
100
AcDbLine
 10
1003.389244744
 20
-421.5590434523
 30
0.0
 11
914.1282178404
 21
-370.0297494527
 31
0.0
  0
LINE
  5
E1
330
1F
100
AcDbEntity
  8
0
  6
Continuous
 62
     7
370
    25
100
AcDbLine
 10
736.6342291636
 20
-677.4722385104
 30
0.0
 11
825.9036697011
 21
-729.0063895975
 31
0.0
  0
LWPOLYLINE
  5
E2
330
1F
100
AcDbEntity
  8
0
  6
Continuous
 62
     7
370
    25
100
AcDbPolyline
 90
      151
 70
   128
 43
0.0
 10
504.5245241344
 20
-501.8059864609
 10
504.6485746914
 20
-494.8957375397
 10
505.0205087358
 20
-487.8543858188
 10
505.6396737688
 20
-480.6942842216
 10
506.5049835646
 20
-473.4279939994
 10
507.6149200756
 20
-466.0682626943
 10
508.9675360963
 20
-458.6280017759
 10
510.5604586783
 20
-451.1202639901
 10
512.3908932942
 20
-443.5582204601
 10
514.4556287398
 20
-435.9551375799
 10
516.7510427674
 20
-428.3243537402
 10
519.2731084409
 20
-420.6792559291
 10
522.0174012001
 20
-413.0332562458
 10
524.9791066229
 20
-405.399768372
 10
528.1530288716
 20
-397.7921840391
 10
531.5335998081
 20
-390.2238495353
 10
535.1148887624
 20
-382.708042291
 10
538.8906129365
 20
-375.257947586
 10
542.8541484273
 20
-367.8866354179
 10
546.9985418468
 20
-360.6070375731
 10
551.3165225205
 20
-353.4319249398
 10
555.8005152432
 20
-346.3738851037
 10
560.442653568
 20
-339.4453002651
 10
565.2347936067
 20
-332.658325516
 10
570.1685283175
 20
-326.0248675164
 10
575.235202253
 20
-319.5565636058
 10
580.4259267457
 20
-313.264761387
 10
585.7315955008
 20
-307.1604988192
 10
591.1429005725
 20
-301.2544848532
 10
596.650348693
 20
-295.5570806443
 10
602.2442779268
 20
-290.0782813755
 10
607.9148746212
 20
-284.8276987224
 10
613.6521906227
 20
-279.8145439912
 10
619.4461607294
 20
-275.0476119588
 10
625.2866203491
 20
-270.5352654436
 10
631.163323331
 20
-266.285420635
 10
637.065959941
 20
-262.3055332046
 10
642.9841749489
 20
-258.6025852275
 10
648.9075857945
 20
-255.1830729327
 10
654.8258008024
 20
-252.0529953068
 10
660.7284374124
 20
-249.2178435693
 10
666.6051403942
 20
-246.68259154
 10
672.4456000139
 20
-244.4516869124
 10
678.2395701207
 20
-242.5290434512
 10
683.9768861222
 20
-240.9180341264
 10
689.6474828166
 20
-239.6214851957
 10
695.2414120504
 20
-238.6416712466
 10
700.7488601708
 20
-237.9803112057
 10
706.1601652426
 20
-237.6385653232
 10
711.4658339977
 20
-237.6170331376
 10
716.6565584903
 20
-237.9157524235
 10
721.7232324259
 20
-238.5341991259
 10
726.6569671367
 20
-239.471288279
 10
731.4491071754
 20
-240.7253759102
 10
736.0912455001
 20
-242.2942619235
 10
740.5752382228
 20
-244.1751939598
 10
744.8932188966
 20
-246.3648722251
 10
749.0376123161
 20
-248.8594552797
 10
753.0011478069
 20
-251.6545667772
 10
756.776871981
 20
-254.7453031424
 10
760.3581609352
 20
-258.1262421733
 10
763.7387318718
 20
-261.7914525541
 10
766.9126541205
 20
-265.7345042603
 10
769.8743595433
 20
-269.9484798394
 10
772.6186523025
 20
-274.4259865462
 10
775.1407179759
 20
-279.1591693126
 10
777.4361320036
 20
-284.1397245276
 10
779.5008674491
 20
-289.358914605
 10
781.3313020651
 20
-294.8075833119
 10
782.9242246471
 20
-300.4761718319
 10
784.2768406677
 20
-306.3547355345
 10
785.3867771788
 20
-312.4329614215
 10
786.2520869746
 20
-318.7001862192
 10
786.8712520075
 20
-325.1454150858
 10
787.2431860519
 20
-331.7573408997
 10
787.367236609
 20
-338.5243640963
 10
787.2431860519
 20
-345.4346130174
 10
786.8712520075
 20
-352.4759647384
 10
786.2520869746
 20
-359.6360663356
 10
785.3867771788
 20
-366.9023565578
 10
784.2768406677
 20
-374.2620878629
 10
782.9242246471
 20
-381.7023487812
 10
781.3313020651
 20
-389.210086567
 10
779.5008674491
 20
-396.772130097
 10
777.4361320036
 20
-404.3752129773
 10
775.1407179759
 20
-412.0059968169
 10
772.6186523025
 20
-419.6510946281
 10
769.8743595433
 20
-427.2970943114
 10
766.9126541205
 20
-434.9305821852
 10
763.7387318718
 20
-442.538166518
 10
760.3581609352
 20
-450.1065010218
 10
756.776871981
 20
-457.6223082662
 10
753.0011478069
 20
-465.0724029712
 10
749.0376123161
 20
-472.4437151393
 10
744.8932188966
 20
-479.7233129841
 10
740.5752382228
 20
-486.8984256174
 10
736.0912455001
 20
-493.9564654534
 10
731.4491071754
 20
-500.8850502921
 10
726.6569671367
 20
-507.6720250412
 10
721.7232324259
 20
-514.3054830407
 10
716.6565584903
 20
-520.7737869514
 10
711.4658339977
 20
-527.0655891702
 10
706.1601652426
 20
-533.169851738
 10
700.7488601708
 20
-539.075865704
 10
695.2414120504
 20
-544.7732699129
 10
689.6474828166
 20
-550.2520691817
 10
683.9768861222
 20
-555.5026518347
 10
678.2395701207
 20
-560.515806566
 10
672.4456000139
 20
-565.2827385984
 10
666.6051403942
 20
-569.7950851135
 10
660.7284374124
 20
-574.0449299222
 10
654.8258008024
 20
-578.0248173526
 10
648.9075857945
 20
-581.7277653296
 10
642.9841749489
 20
-585.1472776244
 10
637.065959941
 20
-588.2773552504
 10
631.163323331
 20
-591.1125069878
 10
625.2866203491
 20
-593.6477590171
 10
619.4461607294
 20
-595.8786636448
 10
613.6521906227
 20
-597.801307106
 10
607.9148746212
 20
-599.4123164308
 10
602.2442779268
 20
-600.7088653614
 10
596.650348693
 20
-601.6886793105
 10
591.1429005725
 20
-602.3500393514
 10
585.7315955008
 20
-602.6917852339
 10
580.4259267457
 20
-602.7133174196
 10
575.235202253
 20
-602.4145981337
 10
570.1685283175
 20
-601.7961514313
 10
565.2347936067
 20
-600.8590622781
 10
560.442653568
 20
-599.604974647
 10
555.8005152432
 20
-598.0360886337
 10
551.3165225205
 20
-596.1551565974
 10
546.9985418468
 20
-593.9654783321
 10
542.8541484273
 20
-591.4708952775
 10
538.8906129365
 20
-588.67578378
 10
535.1148887624
 20
-585.5850474148
 10
531.5335998081
 20
-582.2041083839
 10
528.1530288716
 20
-578.5388980031
 10
524.9791066229
 20
-574.5958462969
 10
522.0174012001
 20
-570.3818707178
 10
519.2731084409
 20
-565.904364011
 10
516.7510427674
 20
-561.1711812446
 10
514.4556287398
 20
-556.1906260295
 10
512.3908932942
 20
-550.9714359522
 10
510.5604586783
 20
-545.5227672453
 10
508.9675360963
 20
-539.8541787253
 10
507.6149200756
 20
-533.9756150227
 10
506.5049835646
 20
-527.8973891357
 10
505.6396737688
 20
-521.6301643379
 10
505.0205087358
 20
-515.1849354713
 10
504.6485746914
 20
-508.5730096574
 10
504.5245241344
 20
-501.8059864609
  0
LWPOLYLINE
  5
E3
330
1F
100
AcDbEntity
  8
0
  6
Continuous
 62
     7
370
    25
100
AcDbPolyline
 90
      136
 70
   128
 43
0.0
 10
530.2632109696
 20
-486.9473588257
 10
530.3884824206
 20
-480.6599072268
 10
530.7640254636
 20
-474.2414375093
 10
531.389026756
 20
-467.7058506494
 10
532.2621326841
 20
-461.0673012728
 10
533.381452295
 20
-454.3401669993
 10
534.7445613915
 20
-447.5390173037
 10
536.348507783
 20
-440.6785819618
 10
538.1898176787
 20
-433.7737191488
 10
540.2645032114
 20
-426.8393832602
 10
542.5680710742
 20
-419.8905925233
 10
545.0955322521
 20
-412.9423964715
 10
547.8414128269
 20
-406.0098433502
 10
550.7997658329
 20
-399.1079475258
 10
553.964184136
 20
-392.2516569678
 10
557.327814311
 20
-385.4558208748
 10
560.8833714839
 20
-378.7351575144
 10
564.6231551096
 20
-372.1042223469
 10
568.5390656494
 20
-365.5773765015
 10
572.6226221133
 20
-359.1687556727
 10
576.8649804271
 20
-352.8922395063
 10
581.2569525875
 20
-346.7614215387
 10
585.7890265607
 20
-340.7895797563
 10
590.4513868837
 20
-334.9896478387
 10
595.2339359223
 20
-329.3741871469
 10
600.1263157401
 20
-323.9553595183
 10
605.117930532
 20
-318.7449009269
 10
610.1979695718
 20
-313.7540960658
 10
615.3554306261
 20
-308.993753907
 10
620.5791437828
 20
-304.4741842916
 10
625.8577956424
 20
-300.2051756009
 10
631.1799538203
 20
-296.1959735572
 10
636.5340917071
 20
-292.4552611993
 10
641.9086134324
 20
-288.9911400772
 10
647.2918789788
 20
-285.8111127059
 10
652.672229392
 20
-282.9220663166
 10
658.038012031
 20
-280.3302579404
 10
663.3776058055
 20
-278.0413008572
 10
668.6794463443
 20
-276.0601524382
 10
673.9320510415
 20
-274.3911034098
 10
679.1240439249
 20
-273.0377685605
 10
684.244180294
 20
-272.0030789123
 10
689.2813710737
 20
-271.2892753725
 10
694.2247068303
 20
-270.8979038807
 10
699.0634813994
 20
-270.8298120603
 10
703.7872150727
 20
-271.0851473831
 10
708.3856772951
 20
-271.6633568496
 10
712.8489088212
 20
-272.5631881869
 10
717.1672432854
 20
-273.7826925607
 10
721.3313281369
 20
-275.319228796
 10
725.3321448952
 20
-277.1694690975
 10
729.161028682
 20
-279.3294062567
 10
732.8096869877
 20
-281.7943623308
 10
736.2702176309
 20
-284.5589987736
 10
739.5351258727
 20
-287.6173279985
 10
742.5973406489
 20
-290.9627263451
 10
745.4502298842
 20
-294.5879484257
 10
748.0876148558
 20
-298.4851428166
 10
750.5037835751
 20
-302.6458690624
 10
752.6935031587
 20
-307.0611159566
 10
754.6520311617
 20
-311.7213210576
 10
756.3751258484
 20
-316.6163913989
 10
757.8590553794
 20
-321.7357253481
 10
759.1006058939
 20
-327.0682355679
 10
760.0970884698
 20
-332.6023730286
 10
760.8463449479
 20
-338.3261520207
 10
761.3467526053
 20
-344.2271761136
 10
761.5972276707
 20
-350.2926650029
 10
761.5972276707
 20
-356.5094821905
 10
761.3467526053
 20
-362.8641634347
 10
760.8463449479
 20
-369.342945911
 10
760.0970884698
 20
-375.931798019
 10
759.1006058939
 20
-382.6164497725
 10
757.8590553794
 20
-389.3824237042
 10
756.3751258484
 20
-396.2150662212
 10
754.6520311617
 20
-403.0995793412
 10
752.6935031587
 20
-410.021052742
 10
750.5037835751
 20
-416.9644960533
 10
748.0876148558
 20
-423.914871323
 10
745.4502298842
 20
-430.8571255862
 10
742.5973406489
 20
-437.7762234658
 10
739.5351258727
 20
-444.6571797366
 10
736.2702176309
 20
-451.4850917795
 10
732.8096869877
 20
-458.2451718576
 10
729.161028682
 20
-464.9227791426
 10
725.3321448952
 20
-471.5034514241
 10
721.3313281369
 20
-477.9729364313
 10
717.1672432854
 20
-484.3172227004
 10
712.8489088212
 20
-490.5225699199
 10
708.3856772951
 20
-496.5755386896
 10
703.7872150727
 20
-502.463019627
 10
699.0634813994
 20
-508.1722617593
 10
694.2247068303
 20
-513.6909001395
 10
689.2813710737
 20
-519.0069826257
 10
684.244180294
 20
-524.108995767
 10
679.1240439249
 20
-528.985889739
 10
673.9320510415
 20
-533.6271022754
 10
668.6794463443
 20
-538.0225815432
 10
663.3776058055
 20
-542.1628079133
 10
658.038012031
 20
-546.0388145771
 10
652.672229392
 20
-549.6422069673
 10
647.2918789788
 20
-552.9651809385
 10
641.9086134323
 20
-556.000539669
 10
636.5340917071
 20
-558.7417092475
 10
631.1799538203
 20
-561.1827529114
 10
625.8577956424
 20
-563.3183839034
 10
620.5791437828
 20
-565.1439769225
 10
615.3554306261
 20
-566.6555781407
 10
610.1979695718
 20
-567.8499137664
 10
605.117930532
 20
-568.7243971344
 10
600.1263157401
 20
-569.2771343087
 10
595.2339359223
 20
-569.5069281835
 10
590.4513868837
 20
-569.4132810765
 10
585.7890265607
 20
-568.9963958065
 10
581.2569525875
 20
-568.2571752541
 10
576.8649804271
 20
-567.1972204065
 10
572.6226221133
 20
-565.8188268898
 10
568.5390656494
 20
-564.1249799974
 10
564.6231551096
 20
-562.1193482245
 10
560.8833714839
 20
-559.806275323
 10
557.327814311
 20
-557.1907708936
 10
553.964184136
 20
-554.2784995366
 10
550.7997658329
 20
-551.0757685832
 10
547.8414128269
 20
-547.5895144355
 10
545.0955322521
 20
-543.8272875437
 10
542.5680710742
 20
-539.7972360534
 10
540.2645032114
 20
-535.5080881588
 10
538.1898176787
 20
-530.9691331991
 10
536.348507783
 20
-526.19020154
 10
534.7445613915
 20
-521.1816432834
 10
533.381452295
 20
-515.9543058512
 10
532.2621326841
 20
-510.5195104921
 10
531.389026756
 20
-504.8890277629
 10
530.7640254636
 20
-499.0750520352
 10
530.3884824206
 20
-493.0901750859
 10
530.2632109696
 20
-486.9473588257
  0
ARC
  5
E4
330
1F
100
AcDbEntity
  8
0
  6
Continuous
 62
     7
370
    25
100
AcDbCircle
 10
845.0353046494
 20
-382.2734539652
 30
0.0
 40
67.64731543835208
100
AcDbArc
 50
48.3185392645
 51
59.9586542729
  0
ARC
  5
E5
330
1F
100
AcDbEntity
  8
0
  6
Continuous
 62
     7
370
    25
100
AcDbCircle
 10
712.6523077787
 20
-611.6212777597
 30
0.0
 40
67.54017385926821
100
AcDbArc
 50
240.0345348723
 51
252.3392603774
  0
LWPOLYLINE
  5
E6
330
1F
100
AcDbEntity
  8
0
  6
Continuous
 62
     7
370
    25
100
AcDbPolyline
 90
       44
 70
   128
 43
0.0
 10
919.7876010669
 20
-396.4279282289
 10
920.1220675145
 20
-399.5580080482
 10
920.6225075523
 20
-406.1049194144
 10
920.8729502102
 20
-412.8144361116
 10
920.8729502102
 20
-419.6746288639
 10
920.6225075523
 20
-426.6733004991
 10
920.1220675145
 20
-433.7980076343
 10
919.3725198608
 20
-441.0360828002
 10
918.3751972596
 20
-448.3746569634
 10
917.1318729141
 20
-455.8006824067
 10
915.6447574097
 20
-463.300955928
 10
913.9164947833
 20
-470.8621423146
 10
911.950157823
 20
-478.4707980531
 10
909.7492426041
 20
-486.1133952312
 10
907.3176622735
 20
-493.7763455901
 10
904.6597400922
 20
-501.4460246836
 10
901.780201749
 20
-509.1087961022
 10
898.6841669579
 20
-516.751035718
 10
895.3771403559
 20
-524.3591559078
 10
891.8650017154
 20
-531.9196297116
 10
888.1539954909
 20
-539.4190148828
 10
884.2507197161
 20
-546.8439777883
 10
880.1621142726
 20
-554.181317115
 10
875.895448552
 20
-561.4179873413
 10
871.45830853
 20
-568.5411219317
 10
866.8585832798
 20
-575.5380562128
 10
862.104450945
 20
-582.3963498908
 10
857.2043641993
 20
-589.1038091699
 10
852.1670352182
 20
-595.6485084321
 10
847.0014201888
 20
-602.018811441
 10
841.7167033861
 20
-608.2033920304
 10
836.3222808438
 20
-614.1912542417
 10
830.8277436482
 20
-619.9717518743
 10
825.2428608859
 20
-625.5346074145
 10
819.5775622748
 20
-630.869930308
 10
813.8419205089
 20
-635.9682345455
 10
808.0461333501
 20
-640.8204555281
 10
802.2005054964
 20
-645.417966184
 10
796.3154302608
 20
-649.752592307
 10
790.4013710923
 20
-653.81662709
 10
784.4688429723
 20
-657.6028448275
 10
778.5283937193
 20
-661.1045137625
 10
772.5905852353
 20
-664.3154080555
 10
769.2175927949
 20
-666.010208838
  0
LWPOLYLINE
  5
E7
330
1F
100
AcDbEntity
  8
0
  6
Continuous
 62
     7
370
    25
100
AcDbPolyline
 90
       24
 70
   128
 43
0.0
 10
912.3506207884
 20
-477.7215766369
 10
910.9605597562
 20
-483.4253497697
 10
909.0005716589
 20
-490.6344251284
 10
906.8080760772
 20
-497.8708670813
 10
904.3874260081
 20
-505.1203083428
 10
901.7434274283
 20
-512.3683558183
 10
898.8813297521
 20
-519.6006191805
 10
895.8068154097
 20
-526.8027394399
 10
892.5259885646
 20
-533.9604174534
 10
889.0453629948
 20
-541.0594423138
 10
885.3718491602
 20
-548.0857195644
 10
881.5127404826
 20
-555.0252991821
 10
877.475698865
 20
-561.8644032739
 10
873.2687394797
 20
-568.5894534317
 10
868.9002148554
 20
-575.187097691
 10
864.3787982932
 20
-581.6442370397
 10
859.7134666471
 20
-587.9480514253
 10
854.9134825015
 20
-594.086025208
 10
849.9883757804
 20
-600.0459720089
 10
844.9479248273
 20
-605.8160589053
 10
839.8021369911
 20
-611.3848299239
 10
834.5612287572
 20
-616.7412287852
 10
829.2356054638
 20
-621.874620855
 10
829.012504724
 20
-622.0830697358
  0
LWPOLYLINE
  5
E8
330
1F
100
AcDbEntity
  8
0
  6
Continuous
 62
     7
370
    25
100
AcDbPolyline
 90
       73
 70
   128
 43
0.0
 10
1003.389244744
 20
-421.5590434523
 10
1003.889433068
 20
-421.8510690308
 10
1007.7322911129
 20
-424.3245567544
 10
1011.390335851
 20
-427.0977579309
 10
1014.8563045732
 20
-430.165166626
 10
1018.1233159193
 20
-433.5206927838
 10
1021.1848835407
 20
-437.1576743175
 10
1024.0349289784
 20
-441.0688903371
 10
1026.6677937308
 20
-445.2465754852
 10
1029.0782504888
 20
-449.6824353545
 10
1031.2615135136
 20
-454.3676629561
 10
1033.2132481385
 20
-459.292956204
 10
1034.9295793752
 20
-464.4485363846
 10
1036.4070996067
 20
-469.8241675705
 10
1037.6428753534
 20
-475.4091769437
 10
1038.6344530971
 20
-481.1924759849
 10
1039.3798641518
 20
-487.1625824894
 10
1039.877628573
 20
-493.3076433632
 10
1040.1267580954
 20
-499.6154581568
 10
1040.1267580954
 20
-506.0735032877
 10
1039.877628573
 20
-512.6689569053
 10
1039.3798641518
 20
-519.3887243468
 10
1038.6344530971
 20
-526.2194641359
 10
1037.6428753534
 20
-533.1476144712
 10
1036.4070996067
 20
-540.1594201513
 10
1034.9295793752
 20
-547.2409598853
 10
1033.2132481385
 20
-554.3781739314
 10
1031.2615135136
 20
-561.5568920118
 10
1029.0782504888
 20
-568.7628614462
 10
1026.6677937308
 20
-575.9817754494
 10
1024.0349289784
 20
-583.1993015358
 10
1021.1848835407
 20
-590.4011099755
 10
1018.1233159193
 20
-597.5729022444
 10
1014.8563045732
 20
-604.7004394128
 10
1011.390335851
 20
-611.7695704155
 10
1007.7322911129
 20
-618.7662601471
 10
1003.889433068
 20
-625.6766173279
 10
999.8693913553
 20
-632.4869220834
 10
995.6801473955
 20
-639.1836531838
 10
991.3300185447
 20
-645.7535148894
 10
986.827641581
 20
-652.1834633479
 10
982.1819555572
 20
-658.4607324919
 10
977.4021840529
 20
-664.5728593845
 10
972.4978168619
 20
-670.5077089636
 10
967.4785911512
 20
-676.2534981346
 10
962.3544721291
 20
-681.798819165
 10
957.1356332594
 20
-687.1326623333
 10
951.8324360637
 20
-692.2444377874
 10
946.4554095491
 20
-697.1239965705
 10
941.015229304
 20
-701.7616507702
 10
935.5226963027
 20
-706.1481927534
 10
929.9887154612
 20
-710.2749134471
 10
924.4242739861
 20
-714.1336196292
 10
918.8404195608
 20
-717.7166501959
 10
913.2482384116
 20
-721.0168913716
 10
907.6588332964
 20
-724.0277908329
 10
902.0833014617
 20
-726.7433707177
 10
896.5327126098
 20
-729.1582394934
 10
891.0180869212
 20
-731.2676026617
 10
885.5503731747
 20
-733.0672722772
 10
880.1404270098
 20
-734.5536752625
 10
874.7989893738
 20
-735.723860502
 10
869.5366651968
 20
-736.5755047013
 10
864.3639023363
 20
-737.1069169997
 10
859.2909708342
 20
-737.3170423272
 10
854.3279425263
 20
-737.2054634994
 10
849.484671046
 20
-736.7724020457
 10
844.7707722606
 20
-736.0187177697
 10
840.1956051796
 20
-734.9459070416
 10
835.7682533738
 20
-733.5560998279
 10
831.4975069405
 20
-731.8520554621
 10
827.3918450513
 20
-729.8371571666
 10
825.9036697011
 20
-729.0063895975
  0
LWPOLYLINE
  5
E9
330
1F
100
AcDbEntity
  8
0
  6
Continuous
 62
     1
370
    25
100
AcDbPolyline
 90
       71
 70
   128
 43
0.0
 10
890.0200069777
 20
-331.7508269309
 10
893.3216364018
 20
-334.8844227163
 10
896.7022073383
 20
-338.5496330971
 10
899.876129587
 20
-342.4926848033
 10
902.8378350098
 20
-346.7066603824
 10
905.582127769
 20
-351.1841670892
 10
908.1041934425
 20
-355.9173498556
 10
910.3996074701
 20
-360.8979050706
 10
912.4643429157
 20
-366.117095148
 10
914.2947775316
 20
-371.5657638549
 10
915.8877001136
 20
-377.2343523749
 10
917.2403161343
 20
-383.1129160775
 10
918.3502526453
 20
-389.1911419645
 10
919.2155624411
 20
-395.4583667623
 10
919.8347274741
 20
-401.9035956288
 10
920.2066615185
 20
-408.5155214427
 10
920.3307120755
 20
-415.2825446393
 10
920.2066615185
 20
-422.1927935605
 10
919.8347274741
 20
-429.2341452814
 10
919.2155624411
 20
-436.3942468786
 10
918.3502526453
 20
-443.6605371008
 10
917.2403161343
 20
-451.0202684059
 10
915.8877001136
 20
-458.4605293242
 10
914.2947775316
 20
-465.96826711
 10
912.4643429157
 20
-473.5303106401
 10
910.3996074701
 20
-481.1333935203
 10
908.1041934425
 20
-488.7641773599
 10
905.582127769
 20
-496.4092751711
 10
902.8378350098
 20
-504.0552748544
 10
899.876129587
 20
-511.6887627282
 10
896.7022073383
 20
-519.2963470611
 10
893.3216364018
 20
-526.8646815649
 10
889.7403474475
 20
-534.3804888092
 10
885.9646232734
 20
-541.8305835142
 10
882.0010877826
 20
-549.2018956823
 10
877.8566943631
 20
-556.4814935271
 10
873.5387136894
 20
-563.6566061604
 10
869.0547209667
 20
-570.7146459964
 10
864.4125826419
 20
-577.6432308351
 10
859.6204426032
 20
-584.4302055842
 10
854.6867078924
 20
-591.0636635838
 10
849.6200339569
 20
-597.5319674944
 10
844.4293094642
 20
-603.8237697132
 10
839.1236407091
 20
-609.928032281
 10
833.7123356374
 20
-615.834046247
 10
828.2048875169
 20
-621.5314504559
 10
822.6109582831
 20
-627.0102497247
 10
816.9403615887
 20
-632.2608323778
 10
811.2030455872
 20
-637.273987109
 10
805.4090754805
 20
-642.0409191414
 10
799.5686158608
 20
-646.5532656565
 10
793.6919128789
 20
-650.8031104652
 10
787.7892762689
 20
-654.7829978956
 10
781.871061261
 20
-658.4859458726
 10
775.9476504154
 20
-661.9054581674
 10
770.0294354075
 20
-665.0355357934
 10
764.1267987975
 20
-667.8706875308
 10
758.2500958157
 20
-670.4059395601
 10
752.409636196
 20
-672.6368441878
 10
746.6156660892
 20
-674.559487649
 10
740.8783500877
 20
-676.1704969738
 10
735.2077533933
 20
-677.4670459045
 10
729.6138241595
 20
-678.4468598535
 10
724.1063760391
 20
-679.1082198944
 10
718.6950709673
 20
-679.4499657769
 10
713.3894022122
 20
-679.4714979626
 10
708.1986777196
 20
-679.1727786767
 10
703.132003784
 20
-678.5543319743
 10
698.1982690732
 20
-677.6172428212
 10
693.4061290345
 20
-676.36315519
 10
692.1619560426
 20
-675.9782553975
  0
LWPOLYLINE
  5
EA
330
1F
100
AcDbEntity
  8
0
  6
Continuous
 62
     1
370
    25
100
AcDbPolyline
 90
       29
 70
   128
 43
0.0
 10
663.5518613603
 20
-542.0313836365
 10
664.206048884
 20
-537.2369027794
 10
665.3253684949
 20
-530.5097685059
 10
666.6884775915
 20
-523.7086188103
 10
668.292423983
 20
-516.8481834684
 10
670.1337338787
 20
-509.9433206555
 10
672.2084194113
 20
-503.0089847669
 10
674.5119872741
 20
-496.06019403
 10
677.039448452
 20
-489.1119979782
 10
679.7853290269
 20
-482.1794448569
 10
682.7436820328
 20
-475.2775490325
 10
685.908100336
 20
-468.4212584745
 10
689.271730511
 20
-461.6254223814
 10
692.8272876838
 20
-454.904759021
 10
696.5670713095
 20
-448.2738238536
 10
700.4829818494
 20
-441.7469780081
 10
704.5665383132
 20
-435.3383571794
 10
708.808896627
 20
-429.061841013
 10
713.2008687874
 20
-422.9310230453
 10
717.7329427606
 20
-416.9591812629
 10
722.3953030836
 20
-411.1592493453
 10
727.1778521222
 20
-405.5437886535
 10
732.07023194
 20
-400.124961025
 10
737.0618467319
 20
-394.9145024336
 10
742.1418857717
 20
-389.9236975725
 10
747.299346826
 20
-385.1633554137
 10
752.5230599827
 20
-380.6437857983
 10
757.8017118423
 20
-376.3747771076
 10
760.283815583
 20
-374.4685684273
  0
LWPOLYLINE
  5
EB
330
1F
100
AcDbEntity
  8
0
  6
Continuous
 62
     1
370
    25
100
AcDbPolyline
 90
       29
 70
   128
 43
0.0
 10
916.7256060624
 20
-457.9686682535
 10
915.9931083859
 20
-462.9206988227
 10
914.7573326391
 20
-469.9325045029
 10
913.2798124076
 20
-477.0140442369
 10
911.563481171
 20
-484.1512582829
 10
909.6117465461
 20
-491.3299763633
 10
907.4284835213
 20
-498.5359457978
 10
905.0180267633
 20
-505.754859801
 10
902.3851620108
 20
-512.9723858874
 10
899.5351165732
 20
-520.1741943271
 10
896.4735489517
 20
-527.345986596
 10
893.2065376056
 20
-534.4735237644
 10
889.7405688835
 20
-541.542654767
 10
886.0825241454
 20
-548.5393444987
 10
882.2396661005
 20
-555.4497016795
 10
878.2196243878
 20
-562.260006435
 10
874.030380428
 20
-568.9567375353
 10
869.6802515771
 20
-575.526599241
 10
865.1778746135
 20
-581.9565476995
 10
860.5321885897
 20
-588.2338168435
 10
855.7524170853
 20
-594.3459437361
 10
850.8480498943
 20
-600.2807933152
 10
845.8288241837
 20
-606.0265824862
 10
840.7047051615
 20
-611.5719035166
 10
835.4858662919
 20
-616.9057466848
 10
830.1826690961
 20
-622.017522139
 10
824.8056425815
 20
-626.8970809221
 10
819.3654623364
 20
-631.5347351218
 10
814.0947592955
 20
-635.7497722305
  0
LWPOLYLINE
  5
EC
330
1F
100
AcDbEntity
  8
0
  6
Continuous
 62
     1
370
    25
100
AcDbPolyline
 90
       27
 70
   128
 43
0.0
 10
668.272395316
 20
-538.3508996
 10
669.3772931788
 20
-531.7115435828
 10
670.724767141
 20
-524.9884044362
 10
672.3103159462
 20
-518.2066596615
 10
674.1305056486
 20
-511.3809970078
 10
676.1813941228
 20
-504.5261993405
 10
678.4585396009
 20
-497.6571126249
 10
680.9570102929
 20
-490.7886137732
 10
683.6713950677
 20
-483.9355784246
 10
686.5958151722
 20
-477.1128487275
 10
689.7239369637
 20
-470.3352011952
 10
693.048985627
 20
-463.617314703
 10
696.5637598471
 20
-456.9737386972
 10
700.2606474057
 20
-450.4188616841
 10
704.1316416674
 20
-443.9668800675
 10
708.1683589209
 20
-437.631767403
 10
712.3620565353
 20
-431.427244134
 10
716.7036518954
 20
-425.3667478762
 10
721.1837420726
 20
-419.4634043149
 10
725.792624189
 20
-413.7299987779
 10
730.5203164324
 20
-408.1789485448
 10
735.356579674
 20
-402.8222759543
 10
740.2909396446
 20
-397.6715823664
 10
745.3127096193
 20
-392.7380230365
 10
750.4110135625
 20
-388.0322829556
 10
755.5748096832
 20
-383.5645537087
 10
759.4572461959
 20
-380.3969903606
  0
ARC
  5
ED
330
1F
100
AcDbEntity
  8
0
  6
Continuous
 62
     1
370
    25
100
AcDbCircle
 10
927.9952496994
 20
-582.9888103929
 30
0.0
 40
245.5386936359973
100
AcDbArc
 50
135.7094147054
 51
164.2959618273
  0
ARC
  5
EE
330
1F
100
AcDbEntity
  8
0
  6
Continuous
 62
     1
370
    25
100
AcDbCircle
 10
931.3357837533
 20
-584.9172596541
 30
0.0
 40
245.0961751533237
100
AcDbArc
 50
138.0206920145
 51
161.9846845182
  0
ENDSEC
  0
SECTION
  2
OBJECTS
  0
DICTIONARY
  5
C
330
0
100
AcDbDictionary
281
     1
  3
ACAD_GROUP
350
D
  3
ACAD_LAYOUT
350
1A
  3
ACAD_MLINESTYLE
350
17
  3
ACAD_PLOTSETTINGS
350
19
  3
ACAD_PLOTSTYLENAME
350
E
  3
ACAD_SCALELIST
350
47
  3
DWGPROPS
350
EF
  0
DICTIONARY
  5
D
102
{ACAD_REACTORS
330
C
102
}
330
C
100
AcDbDictionary
281
     1
  0
DICTIONARY
  5
1A
102
{ACAD_REACTORS
330
C
102
}
330
C
100
AcDbDictionary
281
     1
  3
Layout1
350
1E
  3
Layout2
350
26
  3
Model
350
22
  0
DICTIONARY
  5
17
102
{ACAD_REACTORS
330
C
102
}
330
C
100
AcDbDictionary
281
     1
  3
Standard
350
18
  0
DICTIONARY
  5
19
102
{ACAD_REACTORS
330
C
102
}
330
C
100
AcDbDictionary
281
     1
  0
ACDBDICTIONARYWDFLT
  5
E
102
{ACAD_REACTORS
330
C
102
}
330
C
100
AcDbDictionary
281
     1
  3
Normal
350
F
100
AcDbDictionaryWithDefault
340
F
  0
DICTIONARY
  5
47
102
{ACAD_REACTORS
330
C
102
}
330
C
100
AcDbDictionary
281
     1
  3
A0
350
48
  3
A1
350
49
  3
A2
350
4A
  3
A3
350
4B
  3
A4
350
4C
  3
A5
350
4D
  3
A6
350
4E
  3
A7
350
4F
  3
A8
350
50
  3
A9
350
51
  3
B0
350
52
  3
B1
350
53
  3
B2
350
54
  3
B3
350
55
  3
B4
350
56
  3
B5
350
57
  3
B6
350
58
  3
B7
350
59
  3
B8
350
5A
  3
B9
350
5B
  3
C0
350
5C
  3
C1
350
5D
  3
C2
350
5E
  3
C3
350
5F
  3
C4
350
60
  3
C5
350
61
  3
C6
350
62
  3
C7
350
63
  3
C8
350
64
  3
C9
350
65
  3
D0
350
66
  3
D1
350
67
  3
D2
350
68
  0
XRECORD
  5
EF
102
{ACAD_REACTORS
330
C
102
}
330
C
100
AcDbXrecord
280
     1
  1
DWGPROPS COOKIE
  2

  3

  4

  6

  7

  8
b.kav
  9

300
=
301
=
302
=
303
=
304
=
305
=
306
=
307
=
308
=
309
=
 40
0.0
 41
2459947.403011794
 42
2459947.403011979
  1

 90
        0
  0
LAYOUT
  5
1E
102
{ACAD_REACTORS
330
1A
102
}
330
1A
100
AcDbPlotSettings
  1

  2
none_device
  4

  6

 40
0.0
 41
0.0
 42
0.0
 43
0.0
 44
0.0
 45
0.0
 46
0.0
 47
0.0
 48
0.0
 49
0.0
140
0.0
141
0.0
142
1.0
143
1.0
 70
   688
 72
     1
 73
     0
 74
     5
  7

 75
    16
147
1.0
148
0.0
149
0.0
100
AcDbLayout
  1
Layout1
 70
     1
 71
     1
 10
0.0
 20
0.0
 11
420.0
 21
297.0
 12
0.0
 22
0.0
 32
0.0
 14
1.0000000000E+20
 24
1.0000000000E+20
 34
1.0000000000E+20
 15
-1.0000000000E+20
 25
-1.0000000000E+20
 35
-1.0000000000E+20
146
0.0
 13
0.0
 23
0.0
 33
0.0
 16
1.0
 26
0.0
 36
0.0
 17
0.0
 27
1.0
 37
0.0
 76
     0
330
1B
  0
LAYOUT
  5
26
102
{ACAD_REACTORS
330
1A
102
}
330
1A
100
AcDbPlotSettings
  1

  2
none_device
  4

  6

 40
0.0
 41
0.0
 42
0.0
 43
0.0
 44
0.0
 45
0.0
 46
0.0
 47
0.0
 48
0.0
 49
0.0
140
0.0
141
0.0
142
1.0
143
1.0
 70
   688
 72
     1
 73
     0
 74
     5
  7

 75
    16
147
1.0
148
0.0
149
0.0
100
AcDbLayout
  1
Layout2
 70
     1
 71
     2
 10
0.0
 20
0.0
 11
0.0
 21
0.0
 12
0.0
 22
0.0
 32
0.0
 14
0.0
 24
0.0
 34
0.0
 15
0.0
 25
0.0
 35
0.0
146
0.0
 13
0.0
 23
0.0
 33
0.0
 16
1.0
 26
0.0
 36
0.0
 17
0.0
 27
1.0
 37
0.0
 76
     0
330
23
  0
LAYOUT
  5
22
102
{ACAD_REACTORS
330
1A
102
}
330
1A
100
AcDbPlotSettings
  1

  2
none_device
  4
Letter_(8.50_x_11.00_Inches)
  6

 40
6.35
 41
6.35
 42
6.35000508
 43
6.35000508
 44
215.9
 45
279.4
 46
0.0
 47
0.0
 48
0.0
 49
0.0
140
0.0
141
0.0
142
1.0
143
1.0
 70
  1712
 72
     1
 73
     0
 74
     0
  7

 75
     0
147
1.0
148
0.0
149
0.0
100
AcDbLayout
  1
Model
 70
     1
 71
     0
 10
0.0
 20
0.0
 11
279.4
 21
215.9
 12
0.0
 22
0.0
 32
0.0
 14
0.0
 24
0.0
 34
0.0
 15
279.4
 25
215.9
 35
0.0
146
0.0
 13
0.0
 23
0.0
 33
0.0
 16
1.0
 26
0.0
 36
0.0
 17
0.0
 27
1.0
 37
0.0
 76
     0
330
1F
331
29
  0
MLINESTYLE
  5
18
102
{ACAD_REACTORS
330
17
102
}
330
17
100
AcDbMlineStyle
  2
Standard
 70
     0
  3

 62
   256
 51
90.0
 52
90.0
 71
     2
 49
0.5
 62
   256
  6
BYLAYER
 49
-0.5
 62
   256
  6
BYLAYER
  0
ACDBPLACEHOLDER
  5
F
102
{ACAD_REACTORS
330
E
102
}
330
E
  0
SCALE
  5
48
102
{ACAD_REACTORS
330
47
102
}
330
47
100
AcDbScale
 70
     0
300
1:1
140
1.0
141
1.0
290
     1
  0
SCALE
  5
49
102
{ACAD_REACTORS
330
47
102
}
330
47
100
AcDbScale
 70
     0
300
1:2
140
1.0
141
2.0
290
     0
  0
SCALE
  5
4A
102
{ACAD_REACTORS
330
47
102
}
330
47
100
AcDbScale
 70
     0
300
1:4
140
1.0
141
4.0
290
     0
  0
SCALE
  5
4B
102
{ACAD_REACTORS
330
47
102
}
330
47
100
AcDbScale
 70
     0
300
1:5
140
1.0
141
5.0
290
     0
  0
SCALE
  5
4C
102
{ACAD_REACTORS
330
47
102
}
330
47
100
AcDbScale
 70
     0
300
1:8
140
1.0
141
8.0
290
     0
  0
SCALE
  5
4D
102
{ACAD_REACTORS
330
47
102
}
330
47
100
AcDbScale
 70
     0
300
1:10
140
1.0
141
10.0
290
     0
  0
SCALE
  5
4E
102
{ACAD_REACTORS
330
47
102
}
330
47
100
AcDbScale
 70
     0
300
1:16
140
1.0
141
16.0
290
     0
  0
SCALE
  5
4F
102
{ACAD_REACTORS
330
47
102
}
330
47
100
AcDbScale
 70
     0
300
1:20
140
1.0
141
20.0
290
     0
  0
SCALE
  5
50
102
{ACAD_REACTORS
330
47
102
}
330
47
100
AcDbScale
 70
     0
300
1:30
140
1.0
141
30.0
290
     0
  0
SCALE
  5
51
102
{ACAD_REACTORS
330
47
102
}
330
47
100
AcDbScale
 70
     0
300
1:40
140
1.0
141
40.0
290
     0
  0
SCALE
  5
52
102
{ACAD_REACTORS
330
47
102
}
330
47
100
AcDbScale
 70
     0
300
1:50
140
1.0
141
50.0
290
     0
  0
SCALE
  5
53
102
{ACAD_REACTORS
330
47
102
}
330
47
100
AcDbScale
 70
     0
300
1:100
140
1.0
141
100.0
290
     0
  0
SCALE
  5
54
102
{ACAD_REACTORS
330
47
102
}
330
47
100
AcDbScale
 70
     0
300
2:1
140
2.0
141
1.0
290
     0
  0
SCALE
  5
55
102
{ACAD_REACTORS
330
47
102
}
330
47
100
AcDbScale
 70
     0
300
4:1
140
4.0
141
1.0
290
     0
  0
SCALE
  5
56
102
{ACAD_REACTORS
330
47
102
}
330
47
100
AcDbScale
 70
     0
300
8:1
140
8.0
141
1.0
290
     0
  0
SCALE
  5
57
102
{ACAD_REACTORS
330
47
102
}
330
47
100
AcDbScale
 70
     0
300
10:1
140
10.0
141
1.0
290
     0
  0
SCALE
  5
58
102
{ACAD_REACTORS
330
47
102
}
330
47
100
AcDbScale
 70
     0
300
100:1
140
100.0
141
1.0
290
     0
  0
SCALE
  5
59
102
{ACAD_REACTORS
330
47
102
}
330
47
100
AcDbScale
 70
     0
300
1/128" = 1'-0"
140
0.0078125
141
12.0
290
     0
  0
SCALE
  5
5A
102
{ACAD_REACTORS
330
47
102
}
330
47
100
AcDbScale
 70
     0
300
1/64" = 1'-0"
140
0.015625
141
12.0
290
     0
  0
SCALE
  5
5B
102
{ACAD_REACTORS
330
47
102
}
330
47
100
AcDbScale
 70
     0
300
1/32" = 1'-0"
140
0.03125
141
12.0
290
     0
  0
SCALE
  5
5C
102
{ACAD_REACTORS
330
47
102
}
330
47
100
AcDbScale
 70
     0
300
1/16" = 1'-0"
140
0.0625
141
12.0
290
     0
  0
SCALE
  5
5D
102
{ACAD_REACTORS
330
47
102
}
330
47
100
AcDbScale
 70
     0
300
3/32" = 1'-0"
140
0.09375
141
12.0
290
     0
  0
SCALE
  5
5E
102
{ACAD_REACTORS
330
47
102
}
330
47
100
AcDbScale
 70
     0
300
1/8" = 1'-0"
140
0.125
141
12.0
290
     0
  0
SCALE
  5
5F
102
{ACAD_REACTORS
330
47
102
}
330
47
100
AcDbScale
 70
     0
300
3/16" = 1'-0"
140
0.1875
141
12.0
290
     0
  0
SCALE
  5
60
102
{ACAD_REACTORS
330
47
102
}
330
47
100
AcDbScale
 70
     0
300
1/4" = 1'-0"
140
0.25
141
12.0
290
     0
  0
SCALE
  5
61
102
{ACAD_REACTORS
330
47
102
}
330
47
100
AcDbScale
 70
     0
300
3/8" = 1'-0"
140
0.375
141
12.0
290
     0
  0
SCALE
  5
62
102
{ACAD_REACTORS
330
47
102
}
330
47
100
AcDbScale
 70
     0
300
1/2" = 1'-0"
140
0.5
141
12.0
290
     0
  0
SCALE
  5
63
102
{ACAD_REACTORS
330
47
102
}
330
47
100
AcDbScale
 70
     0
300
3/4" = 1'-0"
140
0.75
141
12.0
290
     0
  0
SCALE
  5
64
102
{ACAD_REACTORS
330
47
102
}
330
47
100
AcDbScale
 70
     0
300
1" = 1'-0"
140
1.0
141
12.0
290
     0
  0
SCALE
  5
65
102
{ACAD_REACTORS
330
47
102
}
330
47
100
AcDbScale
 70
     0
300
1-1/2" = 1'-0"
140
1.5
141
12.0
290
     0
  0
SCALE
  5
66
102
{ACAD_REACTORS
330
47
102
}
330
47
100
AcDbScale
 70
     0
300
3" = 1'-0"
140
3.0
141
12.0
290
     0
  0
SCALE
  5
67
102
{ACAD_REACTORS
330
47
102
}
330
47
100
AcDbScale
 70
     0
300
6" = 1'-0"
140
6.0
141
12.0
290
     0
  0
SCALE
  5
68
102
{ACAD_REACTORS
330
47
102
}
330
47
100
AcDbScale
 70
     0
300
1'-0" = 1'-0"
140
12.0
141
12.0
290
     0
  0
ENDSEC
  0
EOF
